ISO-10303-21;
HEADER;
FILE_DESCRIPTION (( 'STEP AP203' ),
    '1' );
FILE_NAME ('MgF2-MIRQWP-12.7-2500-M.STEP',
    '2020-12-23T01:28:47',
    ( '' ),
    ( '' ),
    'SwSTEP 2.0',
    'SolidWorks 2020',
    '' );
FILE_SCHEMA (( 'CONFIG_CONTROL_DESIGN' ));
ENDSEC;

DATA;
#1 = DIRECTION ( 'NONE',  ( -1.000000000000000000, -0.000000000000000000, -0.000000000000000000 ) ) ;
#2 = DATE_TIME_ROLE ( 'creation_date' ) ;
#3 = APPLICATION_CONTEXT ( 'configuration controlled 3d designs of mechanical parts and assemblies' ) ;
#4 = VERTEX_POINT ( 'NONE', #269 ) ;
#5 = CC_DESIGN_APPROVAL ( #12, ( #73 ) ) ;
#6 = VECTOR ( 'NONE', #196, 1000.000000000000000 ) ;
#7 = ORIENTED_EDGE ( 'NONE', *, *, #284, .T. ) ;
#8 = VERTEX_POINT ( 'NONE', #35 ) ;
#9 = EDGE_CURVE ( 'NONE', #86, #4, #180, .T. ) ;
#10 = EDGE_LOOP ( 'NONE', ( #152, #30 ) ) ;
#11 = AXIS2_PLACEMENT_3D ( 'NONE', #332, #251, #123 ) ;
#12 = APPROVAL ( #29, 'UNSPECIFIED' ) ;
#13 = VERTEX_POINT ( 'NONE', #295 ) ;
#14 = LINE ( 'NONE', #329, #234 ) ;
#15 = CIRCLE ( 'NONE', #209, 6.349999999999999645 ) ;
#16 = AXIS2_PLACEMENT_3D ( 'NONE', #184, #299, #62 ) ;
#17 = CARTESIAN_POINT ( 'NONE',  ( -1.500000000000000444, 0.000000000000000000, 0.000000000000000000 ) ) ;
#18 = CC_DESIGN_DATE_AND_TIME_ASSIGNMENT ( #22, #2, ( #73 ) ) ;
#19 = CARTESIAN_POINT ( 'NONE',  ( 1.500000000000000888, 0.000000000000000000, 0.000000000000000000 ) ) ;
#20 = DIRECTION ( 'NONE',  ( 0.000000000000000000, 0.000000000000000000, 1.000000000000000000 ) ) ;
#21 = DIRECTION ( 'NONE',  ( 0.000000000000000000, 0.000000000000000000, -1.000000000000000000 ) ) ;
#22 = DATE_AND_TIME ( #306, #87 ) ;
#23 = CARTESIAN_POINT ( 'NONE',  ( -1.614212418857619014, 0.000000000000000000, 0.000000000000000000 ) ) ;
#24 = APPROVAL_STATUS ( 'not_yet_approved' ) ;
#25 =( NAMED_UNIT ( * ) PLANE_ANGLE_UNIT ( ) SI_UNIT ( $, .RADIAN. ) );
#26 = COORDINATED_UNIVERSAL_TIME_OFFSET ( 8, 0, .AHEAD. ) ;
#27 = CARTESIAN_POINT ( 'NONE',  ( -1.614212418857619014, 0.000000000000000000, 6.349999999999999645 ) ) ;
#28 = APPROVAL_PERSON_ORGANIZATION ( #75, #161, #224 ) ;
#29 = APPROVAL_STATUS ( 'not_yet_approved' ) ;
#30 = ORIENTED_EDGE ( 'NONE', *, *, #274, .F. ) ;
#31 = VERTEX_POINT ( 'NONE', #208 ) ;
#32 = VERTEX_POINT ( 'NONE', #322 ) ;
#33 = VECTOR ( 'NONE', #135, 1000.000000000000000 ) ;
#34 = PLANE ( 'NONE',  #43 ) ;
#35 = CARTESIAN_POINT ( 'NONE',  ( 3.000000000000000888, 0.000000000000000000, 6.349999999999999645 ) ) ;
#36 = FACE_BOUND ( 'NONE', #179, .T. ) ;
#37 = EDGE_LOOP ( 'NONE', ( #127, #174, #160, #149 ) ) ;
#38 = CARTESIAN_POINT ( 'NONE',  ( 1.500000000000000888, 0.000000000000000000, 0.000000000000000000 ) ) ;
#39 = CARTESIAN_POINT ( 'NONE',  ( -1.614212418857619014, 0.000000000000000000, 12.69999999999999929 ) ) ;
#40 = DIRECTION ( 'NONE',  ( 0.000000000000000000, 0.000000000000000000, -1.000000000000000000 ) ) ;
#41 = CARTESIAN_POINT ( 'NONE',  ( 3.000000000000000888, 0.000000000000000000, 0.000000000000000000 ) ) ;
#42 = DIRECTION ( 'NONE',  ( -1.000000000000000000, -0.000000000000000000, -0.000000000000000000 ) ) ;
#43 = AXIS2_PLACEMENT_3D ( 'NONE', #130, #110, #236 ) ;
#44 = DIRECTION ( 'NONE',  ( 0.000000000000000000, 0.000000000000000000, 1.000000000000000000 ) ) ;
#45 = CALENDAR_DATE ( 2020, 23, 12 ) ;
#46 =( LENGTH_UNIT ( ) NAMED_UNIT ( * ) SI_UNIT ( .MILLI., .METRE. ) );
#47 = COORDINATED_UNIVERSAL_TIME_OFFSET ( 8, 0, .AHEAD. ) ;
#48 = CYLINDRICAL_SURFACE ( 'NONE', #181, 6.349999999999999645 ) ;
#49 = ADVANCED_FACE ( 'NONE', ( #58, #264 ), #34, .F. ) ;
#50 = PERSON_AND_ORGANIZATION ( #97, #99 ) ;
#51 = MANIFOLD_SOLID_BREP ( 'Ðý×', #271 ) ;
#52 = ORIENTED_EDGE ( 'NONE', *, *, #104, .F. ) ;
#53 = PERSON_AND_ORGANIZATION ( #97, #99 ) ;
#54 = AXIS2_PLACEMENT_3D ( 'NONE', #19, #303, #190 ) ;
#55 = APPROVAL_PERSON_ORGANIZATION ( #145, #289, #167 ) ;
#56 = VERTEX_POINT ( 'NONE', #187 ) ;
#57 = EDGE_LOOP ( 'NONE', ( #257, #7, #155, #175 ) ) ;
#58 = FACE_BOUND ( 'NONE', #157, .T. ) ;
#59 = EDGE_LOOP ( 'NONE', ( #183, #288 ) ) ;
#60 = DIRECTION ( 'NONE',  ( -1.000000000000000000, -0.000000000000000000, -0.000000000000000000 ) ) ;
#61 = VERTEX_POINT ( 'NONE', #116 ) ;
#62 = DIRECTION ( 'NONE',  ( -0.000000000000000000, 0.000000000000000000, 1.000000000000000000 ) ) ;
#63 = DIRECTION ( 'NONE',  ( -1.000000000000000000, -0.000000000000000000, -0.000000000000000000 ) ) ;
#64 = CC_DESIGN_APPROVAL ( #161, ( #163 ) ) ;
#65 = FACE_OUTER_BOUND ( 'NONE', #154, .T. ) ;
#66 = DIRECTION ( 'NONE',  ( 0.000000000000000000, 0.000000000000000000, 1.000000000000000000 ) ) ;
#67 = APPROVAL_DATE_TIME ( #255, #289 ) ;
#68 = LINE ( 'NONE', #27, #229 ) ;
#69 = EDGE_CURVE ( 'NONE', #205, #132, #265, .T. ) ;
#70 = CIRCLE ( 'NONE', #286, 6.349999999999999645 ) ;
#71 = DIRECTION ( 'NONE',  ( 0.000000000000000000, 0.000000000000000000, 1.000000000000000000 ) ) ;
#72 = PERSON_AND_ORGANIZATION_ROLE ( 'design_owner' ) ;
#73 = PRODUCT_DEFINITION ( 'UNKNOWN', '', #195, #101 ) ;
#74 = FACE_OUTER_BOUND ( 'NONE', #206, .T. ) ;
#75 = PERSON_AND_ORGANIZATION ( #97, #99 ) ;
#76 = DIRECTION ( 'NONE',  ( 0.000000000000000000, 0.000000000000000000, 1.000000000000000000 ) ) ;
#77 = DATE_AND_TIME ( #45, #204 ) ;
#78 = AXIS2_PLACEMENT_3D ( 'NONE', #325, #88, #207 ) ;
#79 = AXIS2_PLACEMENT_3D ( 'NONE', #120, #194, #198 ) ;
#80 = ORIENTED_EDGE ( 'NONE', *, *, #284, .F. ) ;
#81 = VECTOR ( 'NONE', #63, 1000.000000000000000 ) ;
#82 = EDGE_LOOP ( 'NONE', ( #318, #291 ) ) ;
#83 = ORIENTED_EDGE ( 'NONE', *, *, #267, .T. ) ;
#84 = CIRCLE ( 'NONE', #333, 6.349999999999999645 ) ;
#85 = CARTESIAN_POINT ( 'NONE',  ( -2.999999999999999556, 0.000000000000000000, 0.000000000000000000 ) ) ;
#86 = VERTEX_POINT ( 'NONE', #275 ) ;
#87 = LOCAL_TIME ( 9, 28, 47.00000000000000000, #103 ) ;
#88 = DIRECTION ( 'NONE',  ( -1.000000000000000000, -0.000000000000000000, -0.000000000000000000 ) ) ;
#89 = DIRECTION ( 'NONE',  ( 0.000000000000000000, 0.000000000000000000, 1.000000000000000000 ) ) ;
#90 = DIRECTION ( 'NONE',  ( 1.000000000000000000, 0.000000000000000000, 0.000000000000000000 ) ) ;
#91 = AXIS2_PLACEMENT_3D ( 'NONE', #93, #137, #111 ) ;
#92 = CIRCLE ( 'NONE', #129, 6.349999999999999645 ) ;
#93 = CARTESIAN_POINT ( 'NONE',  ( 1.500000000000000444, 6.349999999999999645, 0.000000000000000000 ) ) ;
#94 = LINE ( 'NONE', #313, #6 ) ;
#95 = APPROVAL_ROLE ( '' ) ;
#96 = DIRECTION ( 'NONE',  ( 1.000000000000000000, 0.000000000000000000, 0.000000000000000000 ) ) ;
#97 = PERSON ( 'UNSPECIFIED', 'UNSPECIFIED', 'UNSPECIFIED', ('UNSPECIFIED'), ('UNSPECIFIED'), ('UNSPECIFIED') ) ;
#98 = AXIS2_PLACEMENT_3D ( 'NONE', #177, #237, #112 ) ;
#99 = ORGANIZATION ( 'UNSPECIFIED', 'UNSPECIFIED', '' ) ;
#100 =( NAMED_UNIT ( * ) SI_UNIT ( $, .STERADIAN. ) SOLID_ANGLE_UNIT ( ) );
#101 = DESIGN_CONTEXT ( 'detailed design', #3, 'design' ) ;
#102 = DIRECTION ( 'NONE',  ( -1.000000000000000000, -0.000000000000000000, -0.000000000000000000 ) ) ;
#103 = COORDINATED_UNIVERSAL_TIME_OFFSET ( 8, 0, .AHEAD. ) ;
#104 = EDGE_CURVE ( 'NONE', #8, #205, #14, .T. ) ;
#105 = ORIENTED_EDGE ( 'NONE', *, *, #256, .T. ) ;
#106 = APPROVAL_PERSON_ORGANIZATION ( #278, #12, #95 ) ;
#107 = EDGE_LOOP ( 'NONE', ( #203, #128, #319, #316 ) ) ;
#108 = VERTEX_POINT ( 'NONE', #211 ) ;
#109 = PRODUCT_RELATED_PRODUCT_CATEGORY ( 'detail', '', ( #249 ) ) ;
#110 = DIRECTION ( 'NONE',  ( 1.000000000000000000, 0.000000000000000000, 0.000000000000000000 ) ) ;
#111 = DIRECTION ( 'NONE',  ( -0.000000000000000000, 0.000000000000000000, 1.000000000000000000 ) ) ;
#112 = DIRECTION ( 'NONE',  ( 0.000000000000000000, 0.000000000000000000, -1.000000000000000000 ) ) ;
#113 = DIRECTION ( 'NONE',  ( -1.000000000000000000, -0.000000000000000000, -0.000000000000000000 ) ) ;
#114 = CARTESIAN_POINT ( 'NONE',  ( 1.500000000000000888, 7.776507174585692163E-16, -6.349999999999999645 ) ) ;
#115 = FACE_OUTER_BOUND ( 'NONE', #37, .T. ) ;
#116 = CARTESIAN_POINT ( 'NONE',  ( -2.999999999999999556, 0.000000000000000000, 6.349999999999999645 ) ) ;
#117 = APPROVAL_DATE_TIME ( #77, #161 ) ;
#118 = CARTESIAN_POINT ( 'NONE',  ( -1.500000000000000444, 6.349999999999999645, 0.000000000000000000 ) ) ;
#119 = MECHANICAL_CONTEXT ( 'NONE', #142, 'mechanical' ) ;
#120 = CARTESIAN_POINT ( 'NONE',  ( -1.614212418857619014, 0.000000000000000000, 0.000000000000000000 ) ) ;
#121 = DATE_AND_TIME ( #314, #334 ) ;
#122 = APPROVAL_STATUS ( 'not_yet_approved' ) ;
#123 = DIRECTION ( 'NONE',  ( 0.000000000000000000, 0.000000000000000000, 1.000000000000000000 ) ) ;
#124 = PERSON_AND_ORGANIZATION_ROLE ( 'classification_officer' ) ;
#125 = ORIENTED_EDGE ( 'NONE', *, *, #317, .T. ) ;
#126 = EDGE_CURVE ( 'NONE', #4, #86, #15, .T. ) ;
#127 = ORIENTED_EDGE ( 'NONE', *, *, #156, .T. ) ;
#128 = ORIENTED_EDGE ( 'NONE', *, *, #153, .F. ) ;
#129 = AXIS2_PLACEMENT_3D ( 'NONE', #165, #276, #89 ) ;
#130 = CARTESIAN_POINT ( 'NONE',  ( -3.000000000000000000, 6.349999999999999645, 0.000000000000000000 ) ) ;
#131 = ADVANCED_FACE ( 'NONE', ( #270 ), #214, .F. ) ;
#132 = VERTEX_POINT ( 'NONE', #114 ) ;
#133 = CC_DESIGN_PERSON_AND_ORGANIZATION_ASSIGNMENT ( #50, #247, ( #73 ) ) ;
#134 = PLANE ( 'NONE',  #16 ) ;
#135 = DIRECTION ( 'NONE',  ( -1.000000000000000000, -0.000000000000000000, -0.000000000000000000 ) ) ;
#136 = VECTOR ( 'NONE', #1, 1000.000000000000000 ) ;
#137 = DIRECTION ( 'NONE',  ( -1.000000000000000000, 0.000000000000000000, -0.000000000000000000 ) ) ;
#138 = DIRECTION ( 'NONE',  ( -1.000000000000000000, -0.000000000000000000, -0.000000000000000000 ) ) ;
#139 = LINE ( 'NONE', #321, #81 ) ;
#140 = LOCAL_TIME ( 9, 28, 47.00000000000000000, #168 ) ;
#141 = AXIS2_PLACEMENT_3D ( 'NONE', #324, #60, #159 ) ;
#142 = APPLICATION_CONTEXT ( 'configuration controlled 3d designs of mechanical parts and assemblies' ) ;
#143 = FACE_OUTER_BOUND ( 'NONE', #315, .T. ) ;
#144 = SHAPE_DEFINITION_REPRESENTATION ( #238, #200 ) ;
#145 = PERSON_AND_ORGANIZATION ( #97, #99 ) ;
#146 = CYLINDRICAL_SURFACE ( 'NONE', #79, 12.69999999999999929 ) ;
#147 = PERSON_AND_ORGANIZATION ( #97, #99 ) ;
#148 = AXIS2_PLACEMENT_3D ( 'NONE', #222, #169, #44 ) ;
#149 = ORIENTED_EDGE ( 'NONE', *, *, #176, .F. ) ;
#150 = SECURITY_CLASSIFICATION_LEVEL ( 'unclassified' ) ;
#151 = CIRCLE ( 'NONE', #266, 12.69999999999999929 ) ;
#152 = ORIENTED_EDGE ( 'NONE', *, *, #156, .F. ) ;
#153 = EDGE_CURVE ( 'NONE', #8, #13, #84, .T. ) ;
#154 = EDGE_LOOP ( 'NONE', ( #173, #240, #263, #52 ) ) ;
#155 = ORIENTED_EDGE ( 'NONE', *, *, #213, .T. ) ;
#156 = EDGE_CURVE ( 'NONE', #56, #108, #283, .T. ) ;
#157 = EDGE_LOOP ( 'NONE', ( #254, #232 ) ) ;
#158 = CC_DESIGN_PERSON_AND_ORGANIZATION_ASSIGNMENT ( #53, #124, ( #163 ) ) ;
#159 = DIRECTION ( 'NONE',  ( 0.000000000000000000, 0.000000000000000000, 1.000000000000000000 ) ) ;
#160 = ORIENTED_EDGE ( 'NONE', *, *, #235, .F. ) ;
#161 = APPROVAL ( #122, 'UNSPECIFIED' ) ;
#162 = CYLINDRICAL_SURFACE ( 'NONE', #141, 6.349999999999999645 ) ;
#163 = SECURITY_CLASSIFICATION ( '', '', #150 ) ;
#164 = DIRECTION ( 'NONE',  ( -1.000000000000000000, -0.000000000000000000, -0.000000000000000000 ) ) ;
#165 = CARTESIAN_POINT ( 'NONE',  ( -2.999999999999999556, 0.000000000000000000, 0.000000000000000000 ) ) ;
#166 = CARTESIAN_POINT ( 'NONE',  ( -3.000000000000000000, 0.000000000000000000, 0.000000000000000000 ) ) ;
#167 = APPROVAL_ROLE ( '' ) ;
#168 = COORDINATED_UNIVERSAL_TIME_OFFSET ( 8, 0, .AHEAD. ) ;
#169 = DIRECTION ( 'NONE',  ( -1.000000000000000000, -0.000000000000000000, -0.000000000000000000 ) ) ;
#170 = DIRECTION ( 'NONE',  ( -1.000000000000000000, -0.000000000000000000, -0.000000000000000000 ) ) ;
#171 = PERSON_AND_ORGANIZATION ( #97, #99 ) ;
#172 = CIRCLE ( 'NONE', #148, 6.349999999999999645 ) ;
#173 = ORIENTED_EDGE ( 'NONE', *, *, #317, .F. ) ;
#174 = ORIENTED_EDGE ( 'NONE', *, *, #244, .T. ) ;
#175 = ORIENTED_EDGE ( 'NONE', *, *, #267, .F. ) ;
#176 = EDGE_CURVE ( 'NONE', #56, #31, #239, .T. ) ;
#177 = CARTESIAN_POINT ( 'NONE',  ( -1.500000000000000444, 0.000000000000000000, 0.000000000000000000 ) ) ;
#178 = ADVANCED_FACE ( 'NONE', ( #300 ), #246, .F. ) ;
#179 = EDGE_LOOP ( 'NONE', ( #294, #125 ) ) ;
#180 = CIRCLE ( 'NONE', #98, 6.349999999999999645 ) ;
#181 = AXIS2_PLACEMENT_3D ( 'NONE', #248, #311, #76 ) ;
#182 = DIRECTION ( 'NONE',  ( -1.000000000000000000, -0.000000000000000000, -0.000000000000000000 ) ) ;
#183 = ORIENTED_EDGE ( 'NONE', *, *, #69, .F. ) ;
#184 = CARTESIAN_POINT ( 'NONE',  ( 3.000000000000000000, 12.69999999999999929, 0.000000000000000000 ) ) ;
#185 = EDGE_CURVE ( 'NONE', #132, #205, #216, .T. ) ;
#186 = DIRECTION ( 'NONE',  ( 0.000000000000000000, 0.000000000000000000, 1.000000000000000000 ) ) ;
#187 = CARTESIAN_POINT ( 'NONE',  ( 3.000000000000000000, 0.000000000000000000, 12.69999999999999929 ) ) ;
#188 = CARTESIAN_POINT ( 'NONE',  ( -3.000000000000000000, 0.000000000000000000, 0.000000000000000000 ) ) ;
#189 = AXIS2_PLACEMENT_3D ( 'NONE', #118, #96, #21 ) ;
#190 = DIRECTION ( 'NONE',  ( 0.000000000000000000, 0.000000000000000000, 1.000000000000000000 ) ) ;
#191 = FACE_OUTER_BOUND ( 'NONE', #57, .T. ) ;
#192 = ADVANCED_FACE ( 'NONE', ( #115 ), #245, .T. ) ;
#193 = CALENDAR_DATE ( 2020, 23, 12 ) ;
#194 = DIRECTION ( 'NONE',  ( -1.000000000000000000, -0.000000000000000000, -0.000000000000000000 ) ) ;
#195 = PRODUCT_DEFINITION_FORMATION_WITH_SPECIFIED_SOURCE ( 'ANY', '', #249, .NOT_KNOWN. ) ;
#196 = DIRECTION ( 'NONE',  ( -1.000000000000000000, -0.000000000000000000, -0.000000000000000000 ) ) ;
#197 = DIRECTION ( 'NONE',  ( 0.000000000000000000, 0.000000000000000000, 1.000000000000000000 ) ) ;
#198 = DIRECTION ( 'NONE',  ( 0.000000000000000000, 0.000000000000000000, 1.000000000000000000 ) ) ;
#199 = DATE_TIME_ROLE ( 'classification_date' ) ;
#200 = ADVANCED_BREP_SHAPE_REPRESENTATION ( 'MgF2-MIRQWP-12.7-2500-M', ( #51, #272 ), #308 ) ;
#201 = ORIENTED_EDGE ( 'NONE', *, *, #126, .F. ) ;
#202 = CIRCLE ( 'NONE', #11, 12.69999999999999929 ) ;
#203 = ORIENTED_EDGE ( 'NONE', *, *, #301, .F. ) ;
#204 = LOCAL_TIME ( 9, 28, 47.00000000000000000, #47 ) ;
#205 = VERTEX_POINT ( 'NONE', #217 ) ;
#206 = EDGE_LOOP ( 'NONE', ( #298, #201 ) ) ;
#207 = DIRECTION ( 'NONE',  ( 0.000000000000000000, 0.000000000000000000, 1.000000000000000000 ) ) ;
#208 = CARTESIAN_POINT ( 'NONE',  ( -3.000000000000000000, 0.000000000000000000, 12.69999999999999929 ) ) ;
#209 = AXIS2_PLACEMENT_3D ( 'NONE', #17, #90, #40 ) ;
#210 = AXIS2_PLACEMENT_3D ( 'NONE', #327, #242, #66 ) ;
#211 = CARTESIAN_POINT ( 'NONE',  ( 3.000000000000000000, 1.555301434917138433E-15, -12.69999999999999929 ) ) ;
#212 = DIRECTION ( 'NONE',  ( -1.000000000000000000, -0.000000000000000000, -0.000000000000000000 ) ) ;
#213 = EDGE_CURVE ( 'NONE', #32, #61, #92, .T. ) ;
#214 = PLANE ( 'NONE',  #91 ) ;
#215 = CARTESIAN_POINT ( 'NONE',  ( 0.000000000000000000, 0.000000000000000000, 0.000000000000000000 ) ) ;
#216 = CIRCLE ( 'NONE', #54, 6.349999999999999645 ) ;
#217 = CARTESIAN_POINT ( 'NONE',  ( 1.500000000000000888, 0.000000000000000000, 6.349999999999999645 ) ) ;
#218 = AXIS2_PLACEMENT_3D ( 'NONE', #166, #170, #282 ) ;
#219 = CC_DESIGN_PERSON_AND_ORGANIZATION_ASSIGNMENT ( #147, #253, ( #195 ) ) ;
#220 = CYLINDRICAL_SURFACE ( 'NONE', #260, 6.349999999999999645 ) ;
#221 = DIRECTION ( 'NONE',  ( -1.000000000000000000, -0.000000000000000000, -0.000000000000000000 ) ) ;
#222 = CARTESIAN_POINT ( 'NONE',  ( 3.000000000000000888, 0.000000000000000000, 0.000000000000000000 ) ) ;
#223 = CC_DESIGN_PERSON_AND_ORGANIZATION_ASSIGNMENT ( #281, #72, ( #249 ) ) ;
#224 = APPROVAL_ROLE ( '' ) ;
#225 = UNCERTAINTY_MEASURE_WITH_UNIT (LENGTH_MEASURE( 1.000000000000000082E-05 ), #46, 'distance_accuracy_value', 'NONE');
#226 = CARTESIAN_POINT ( 'NONE',  ( -1.614212418857619014, 7.776507174585692163E-16, -6.349999999999999645 ) ) ;
#227 = APPLICATION_PROTOCOL_DEFINITION ( 'international standard', 'config_control_design', 1994, #3 ) ;
#228 = AXIS2_PLACEMENT_3D ( 'NONE', #38, #164, #243 ) ;
#229 = VECTOR ( 'NONE', #102, 1000.000000000000000 ) ;
#230 = CC_DESIGN_DATE_AND_TIME_ASSIGNMENT ( #121, #199, ( #163 ) ) ;
#231 = ORIENTED_EDGE ( 'NONE', *, *, #176, .T. ) ;
#232 = ORIENTED_EDGE ( 'NONE', *, *, #213, .F. ) ;
#233 = ORIENTED_EDGE ( 'NONE', *, *, #244, .F. ) ;
#234 = VECTOR ( 'NONE', #113, 1000.000000000000000 ) ;
#235 = EDGE_CURVE ( 'NONE', #31, #320, #151, .T. ) ;
#236 = DIRECTION ( 'NONE',  ( 0.000000000000000000, 0.000000000000000000, -1.000000000000000000 ) ) ;
#237 = DIRECTION ( 'NONE',  ( 1.000000000000000000, 0.000000000000000000, 0.000000000000000000 ) ) ;
#238 = PRODUCT_DEFINITION_SHAPE ( 'NONE', 'NONE',  #73 ) ;
#239 = LINE ( 'NONE', #39, #33 ) ;
#240 = ORIENTED_EDGE ( 'NONE', *, *, #301, .T. ) ;
#241 = LOCAL_TIME ( 9, 28, 47.00000000000000000, #330 ) ;
#242 = DIRECTION ( 'NONE',  ( -1.000000000000000000, -0.000000000000000000, -0.000000000000000000 ) ) ;
#243 = DIRECTION ( 'NONE',  ( 0.000000000000000000, 0.000000000000000000, 1.000000000000000000 ) ) ;
#244 = EDGE_CURVE ( 'NONE', #108, #320, #139, .T. ) ;
#245 = CYLINDRICAL_SURFACE ( 'NONE', #210, 12.69999999999999929 ) ;
#246 = CYLINDRICAL_SURFACE ( 'NONE', #78, 6.349999999999999645 ) ;
#247 = PERSON_AND_ORGANIZATION_ROLE ( 'creator' ) ;
#248 = CARTESIAN_POINT ( 'NONE',  ( -1.614212418857619014, 0.000000000000000000, 0.000000000000000000 ) ) ;
#249 = PRODUCT ( 'MgF2-MIRQWP-12.7-2500-M', 'MgF2-MIRQWP-12.7-2500-M', '', ( #119 ) ) ;
#250 = APPLICATION_PROTOCOL_DEFINITION ( 'international standard', 'config_control_design', 1994, #142 ) ;
#251 = DIRECTION ( 'NONE',  ( -1.000000000000000000, -0.000000000000000000, -0.000000000000000000 ) ) ;
#252 = CC_DESIGN_SECURITY_CLASSIFICATION ( #163, ( #195 ) ) ;
#253 = PERSON_AND_ORGANIZATION_ROLE ( 'creator' ) ;
#254 = ORIENTED_EDGE ( 'NONE', *, *, #256, .F. ) ;
#255 = DATE_AND_TIME ( #287, #241 ) ;
#256 = EDGE_CURVE ( 'NONE', #61, #32, #70, .T. ) ;
#257 = ORIENTED_EDGE ( 'NONE', *, *, #9, .T. ) ;
#258 = ADVANCED_FACE ( 'NONE', ( #65 ), #162, .F. ) ;
#259 = ORIENTED_EDGE ( 'NONE', *, *, #126, .T. ) ;
#260 = AXIS2_PLACEMENT_3D ( 'NONE', #23, #221, #71 ) ;
#261 = ORIENTED_EDGE ( 'NONE', *, *, #274, .T. ) ;
#262 = ADVANCED_FACE ( 'NONE', ( #268, #36 ), #134, .F. ) ;
#263 = ORIENTED_EDGE ( 'NONE', *, *, #185, .T. ) ;
#264 = FACE_OUTER_BOUND ( 'NONE', #82, .T. ) ;
#265 = CIRCLE ( 'NONE', #228, 6.349999999999999645 ) ;
#266 = AXIS2_PLACEMENT_3D ( 'NONE', #188, #42, #302 ) ;
#267 = EDGE_CURVE ( 'NONE', #86, #61, #68, .T. ) ;
#268 = FACE_OUTER_BOUND ( 'NONE', #10, .T. ) ;
#269 = CARTESIAN_POINT ( 'NONE',  ( -1.500000000000000444, 7.776507174585692163E-16, -6.349999999999999645 ) ) ;
#270 = FACE_OUTER_BOUND ( 'NONE', #59, .T. ) ;
#271 = CLOSED_SHELL ( 'NONE', ( #192, #310, #258, #131, #178, #335, #49, #296, #262, #331 ) ) ;
#272 = AXIS2_PLACEMENT_3D ( 'NONE', #215, #197, #309 ) ;
#273 = DIRECTION ( 'NONE',  ( 0.000000000000000000, 0.000000000000000000, 1.000000000000000000 ) ) ;
#274 = EDGE_CURVE ( 'NONE', #108, #56, #202, .T. ) ;
#275 = CARTESIAN_POINT ( 'NONE',  ( -1.500000000000000444, 0.000000000000000000, 6.349999999999999645 ) ) ;
#276 = DIRECTION ( 'NONE',  ( -1.000000000000000000, -0.000000000000000000, -0.000000000000000000 ) ) ;
#277 = FACE_OUTER_BOUND ( 'NONE', #285, .T. ) ;
#278 = PERSON_AND_ORGANIZATION ( #97, #99 ) ;
#279 = DATE_AND_TIME ( #193, #140 ) ;
#280 = PLANE ( 'NONE',  #189 ) ;
#281 = PERSON_AND_ORGANIZATION ( #97, #99 ) ;
#282 = DIRECTION ( 'NONE',  ( 0.000000000000000000, 0.000000000000000000, 1.000000000000000000 ) ) ;
#283 = CIRCLE ( 'NONE', #328, 12.69999999999999929 ) ;
#284 = EDGE_CURVE ( 'NONE', #4, #32, #307, .T. ) ;
#285 = EDGE_LOOP ( 'NONE', ( #233, #261, #231, #290 ) ) ;
#286 = AXIS2_PLACEMENT_3D ( 'NONE', #85, #182, #273 ) ;
#287 = CALENDAR_DATE ( 2020, 23, 12 ) ;
#288 = ORIENTED_EDGE ( 'NONE', *, *, #185, .F. ) ;
#289 = APPROVAL ( #24, 'UNSPECIFIED' ) ;
#290 = ORIENTED_EDGE ( 'NONE', *, *, #326, .F. ) ;
#291 = ORIENTED_EDGE ( 'NONE', *, *, #326, .T. ) ;
#292 = CC_DESIGN_APPROVAL ( #289, ( #195 ) ) ;
#293 = CC_DESIGN_PERSON_AND_ORGANIZATION_ASSIGNMENT ( #171, #312, ( #195 ) ) ;
#294 = ORIENTED_EDGE ( 'NONE', *, *, #153, .T. ) ;
#295 = CARTESIAN_POINT ( 'NONE',  ( 3.000000000000000888, 7.776507174585692163E-16, -6.349999999999999645 ) ) ;
#296 = ADVANCED_FACE ( 'NONE', ( #277 ), #146, .T. ) ;
#297 = CARTESIAN_POINT ( 'NONE',  ( 3.000000000000000000, 0.000000000000000000, 0.000000000000000000 ) ) ;
#298 = ORIENTED_EDGE ( 'NONE', *, *, #9, .F. ) ;
#299 = DIRECTION ( 'NONE',  ( -1.000000000000000000, 0.000000000000000000, -0.000000000000000000 ) ) ;
#300 = FACE_OUTER_BOUND ( 'NONE', #107, .T. ) ;
#301 = EDGE_CURVE ( 'NONE', #13, #132, #94, .T. ) ;
#302 = DIRECTION ( 'NONE',  ( 0.000000000000000000, 0.000000000000000000, 1.000000000000000000 ) ) ;
#303 = DIRECTION ( 'NONE',  ( -1.000000000000000000, -0.000000000000000000, -0.000000000000000000 ) ) ;
#304 = APPROVAL_DATE_TIME ( #279, #12 ) ;
#305 = CARTESIAN_POINT ( 'NONE',  ( -3.000000000000000000, 1.555301434917138433E-15, -12.69999999999999929 ) ) ;
#306 = CALENDAR_DATE ( 2020, 23, 12 ) ;
#307 = LINE ( 'NONE', #226, #136 ) ;
#308 =( GEOMETRIC_REPRESENTATION_CONTEXT ( 3 ) GLOBAL_UNCERTAINTY_ASSIGNED_CONTEXT ( ( #225 ) ) GLOBAL_UNIT_ASSIGNED_CONTEXT ( ( #46, #25, #100 ) ) REPRESENTATION_CONTEXT ( 'NONE', 'WORKASPACE' ) );
#309 = DIRECTION ( 'NONE',  ( 1.000000000000000000, 0.000000000000000000, 0.000000000000000000 ) ) ;
#310 = ADVANCED_FACE ( 'NONE', ( #191 ), #48, .F. ) ;
#311 = DIRECTION ( 'NONE',  ( -1.000000000000000000, -0.000000000000000000, -0.000000000000000000 ) ) ;
#312 = PERSON_AND_ORGANIZATION_ROLE ( 'design_supplier' ) ;
#313 = CARTESIAN_POINT ( 'NONE',  ( -1.614212418857619014, 7.776507174585692163E-16, -6.349999999999999645 ) ) ;
#314 = CALENDAR_DATE ( 2020, 23, 12 ) ;
#315 = EDGE_LOOP ( 'NONE', ( #80, #259, #83, #105 ) ) ;
#316 = ORIENTED_EDGE ( 'NONE', *, *, #69, .T. ) ;
#317 = EDGE_CURVE ( 'NONE', #13, #8, #172, .T. ) ;
#318 = ORIENTED_EDGE ( 'NONE', *, *, #235, .T. ) ;
#319 = ORIENTED_EDGE ( 'NONE', *, *, #104, .T. ) ;
#320 = VERTEX_POINT ( 'NONE', #305 ) ;
#321 = CARTESIAN_POINT ( 'NONE',  ( -1.614212418857619014, 1.555301434917138433E-15, -12.69999999999999929 ) ) ;
#322 = CARTESIAN_POINT ( 'NONE',  ( -2.999999999999999556, 7.776507174585692163E-16, -6.349999999999999645 ) ) ;
#323 = CIRCLE ( 'NONE', #218, 12.69999999999999929 ) ;
#324 = CARTESIAN_POINT ( 'NONE',  ( -1.614212418857619014, 0.000000000000000000, 0.000000000000000000 ) ) ;
#325 = CARTESIAN_POINT ( 'NONE',  ( -1.614212418857619014, 0.000000000000000000, 0.000000000000000000 ) ) ;
#326 = EDGE_CURVE ( 'NONE', #320, #31, #323, .T. ) ;
#327 = CARTESIAN_POINT ( 'NONE',  ( -1.614212418857619014, 0.000000000000000000, 0.000000000000000000 ) ) ;
#328 = AXIS2_PLACEMENT_3D ( 'NONE', #297, #138, #20 ) ;
#329 = CARTESIAN_POINT ( 'NONE',  ( -1.614212418857619014, 0.000000000000000000, 6.349999999999999645 ) ) ;
#330 = COORDINATED_UNIVERSAL_TIME_OFFSET ( 8, 0, .AHEAD. ) ;
#331 = ADVANCED_FACE ( 'NONE', ( #74 ), #280, .F. ) ;
#332 = CARTESIAN_POINT ( 'NONE',  ( 3.000000000000000000, 0.000000000000000000, 0.000000000000000000 ) ) ;
#333 = AXIS2_PLACEMENT_3D ( 'NONE', #41, #212, #186 ) ;
#334 = LOCAL_TIME ( 9, 28, 47.00000000000000000, #26 ) ;
#335 = ADVANCED_FACE ( 'NONE', ( #143 ), #220, .F. ) ;
ENDSEC;
END-ISO-10303-21;
